Taylor Swift – State of Grace Chords

taylor swift guitar chords tabs lyrics acoustic
Capo:
View Favorites
scroll Autoscroll 0 1 2
Tuning: eADGBE (standard)
No Capo
Chords:
E     022100      F#m     244222
A     x02220      G#m     466444

[Intro]
0:23 - 0:36

E - A
    N. N.
|---12---------12-12------------------------------|
|------12-13---------12-13----10-9-10-----10-9-12-|
|----------------------------9-----------9--------|
|-------------------------------------------------|
|-------------------------------------------------|
|-------------------------------------------------|
*N. = Natural Harmonics

[Verse I]
*sounds good with fast downstrokes. But that's just me :)

E
I'm walking fast through the traffic lights
E
Busy streets and busy lives and
A
All we know,
A
is touch and go
E
We are alone with our changing minds
E
We fall in love `till it hurts or bleeds or
A
fades in time
A
(Instruments only)

[Chorus]
       E                  A
And I never saw you coming
          E               A
And I’ll never be the same

[Same as Intro]

E - A

|---12---------12-12------------------------------|
|------12-9----------12-9-----10-9-10-----10-9-12-|
|----------------------------9-----------9--------|
|-------------------------------------------------|
|-------------------------------------------------|
|-------------------------------------------------|
[Verse II]
E
You come around and the armor falls
E
Pierce the room like a cannon ball, now
A
All we know,
A   
is don’t let go

E
We are alone just you and me
E
Up in your room and our slates are clean
     A
Just twin fire signs,
     A
     four blue eyes

E
So you were never a saint
And I love the shades are wrong
E
We learn to live with the pain
Mostly of broken hearts
A
But this love is raging and wild

[Chorus]
       E                  A
And I never saw you coming
          E               A
And I’ll never be the same

(strum once...)
                   E
This is a state of grace
                     A
This is a worth while fight
                  F#m
Love is a ruthless game
  G#m              A
Unless you play it good and right
                       E
These are the hands of fate
                   A
You’re my Achilles heel
                  F#m               G#m
This is the golden age of something good
              A
And right and real

       E                  A
And I never saw you coming
          E               A
And I’ll never be the same
       E                  A
And I never saw you coming
          E               A
And I’ll never be the same

                   E
This is a state of grace
                     A
This is a worth while fight
                  F#m
Love is a ruthless game
  G#m              A
Unless you play it good and right


Keep Rocking!

Leave a Comment