Florida Georgia Line – Smile Chords

View Favorites
Capo:
scroll Autoscroll 0 1 2
NO CAPO

Am    x02210
F     133211
G     320033

[Verse I]
Am
 Got on my smell good, got a bottle of feel good
Am
 Shining my wheels good, you're looking real good
Am
 Take a stack of cash out, I'm bout to blast out
Am
 Til I run the gas out, I'm going all out
Am
 All I want to see is you have a good time
Am
 No I don't care if it takes me all night

[Chorus]
F                  G
 I'll give anything to see you looking that way
F                         G
 Give me that little love yeah on your pretty face
F                   G
 All I'm waiting for is for you to just
F               G
Lay your pretty head on my shoulder
      F                   G               F
For a while and find your jam on my radio dial
           G                                    
Girl all I want, is just to see you
e|--------------------------------|
B|--------------------------------|
G|--------------------------------|
D|--------------------------------|
A|----3--5--7--5--7----5--3-------|
E|-5--------------------------5-3-|    *Repeat Riff
 smi--*--*--*--le That pretty little smile

[Verse II]
Am
 I'll take you out there, in the middle of nowhere
Am
 Let down your blonde hair, breathe in that midnight air
Am
 Girl we can take a trip, to the river and take a sip
Am
 Do a little back flip and kiss kiss kiss your lips
[Chorus]
F                  G
 I'll give anything to see you looking that way
F                         G
 Give me that little love yeah on your pretty face
F                   G
 All I'm waiting for is for you to just
F               G
Lay your pretty head on my shoulder
      F                   G               F
For a while and find your jam on my radio dial
           G                                    
Girl all I want, is just to see you
e|--------------------------------|
B|--------------------------------|
G|--------------------------------|
D|--------------------------------|
A|----3--5--7--5--7----5--3-------|
E|-5--------------------------5-3-|    *Repeat Riff
 smi--*--*--*--le That pretty little smile

Am    Am
 
[Bridge]
                             F
Girl I just want to make you dance
G                                F
Give you the best night you ever had
G                      F         G
Oh, and girl I want it bad, bad, bad oh----

[Chorus]
F                  G
 I'll give anything to see you looking that way
F                         G
 Give me that little love yeah on your pretty face
F                   G
 All I'm waiting for is for you to just
F               G
Lay your pretty head on my shoulder
      F                   G               F
For a while and find your jam on my radio dial
           G                                    
Girl all I want, is just to see you
e|--------------------------------|
B|--------------------------------|
G|--------------------------------|
D|--------------------------------|
A|----3--5--7--5--7----5--3-------|
E|-5--------------------------5-3-|    *Repeat Riff
 smi--*--*--*--le That pretty little smile
		


Keep Rocking!