Blink-182 – Boxing Day Chords

View Favorites
Capo:
scroll Autoscroll 0 1 2
No Capo || Tuning: EADGBe (standard)

G     3x0033      Em7   022033
G/D   2x0033      C9    x3x033
E/D   x02x33      F#/D  2x0233

*This is a very cool song to learn, but not easy to sing along to
 while playing the guitar, just keep on practicing
 it on a slower tempo and increase it gradually.

[Intro]
e|------------------------------------|
B|---3---------3---1---------1p0------|
G|-------0---0---------0---0-------0--|
D|------------------------------------|
A|---2-----2-------0-----0-------0----|
E|------------------------------------| x3
e|---------------------|
B|---3---------3---1~--|
G|-------0---0---------|
D|---------------------|
A|---2-----2-------0~--|
E|---------------------| x1

     G          G/D   E/D     Em7          C9
e|---3-----------3-----3-------3-----------3---3-3-3--|
B|---3-----------3-----3-------3-----------0h1-1-1-0--|
G|---0-----------0-----x-------0-----------0---0-0-0--|
D|---0-----------0-----2-------2-----------x---x-x-x--|
A|---x-----------x-----0-------2-----------3---3-3-3--|
E|---3-----------2-----x-------0-----------x---x-x-x--|

*This continues for the whole verse

[Verse]
 G        G/D    E/D   Em7              C9
Let's get started, the faint and broken-hearted,
        G             G/D   E/D  Em7    C9
Hold it up, I've got something I cannot hide.
 G         G/D   E/D   Em7     C9
Worst painkiller, that all-in filler,
     G      G/D  E/D   Em7       C9
Apart and depar--ted  look in my eyes.

[Pre Chorus]
 G               F#/D                  Em7
Sad, how far you ran, I'll search this land,
                 C9
Up through the clouds then back here.
G            F#/D           Em7                Pause
We could reignite like fireflies, like an atom bomb,
At all hours.

[Chorus]
                    G           C9
I'm empty like the day after christmas,
                  Em7             C9
Swept beneath the wave of your goodbye.
                   G            C9
You left me on the day after christmas,
                         Em7           C9
There's nothing left to say, and so goodnight.

     G          G/D   E/D     Em7
e|---3-----------3-----3-------3-------x-x-x-x-x-x-|
B|---3-----------3-----3-------3-------x-x-x-x-x-x-|
G|---0-----------0-----x-------0-------4/5-5-5-4-2-|
D|---0-----------0-----2-------2-------x-x-x-x-x-x-|
A|---x-----------x-----0-------2-------2/3-5-3-2-2-|
E|---3-----------2-----x-------0-------x-x-x-x-x-x-| x2

[Verse II]
G       G/D   E/D     Em7    C9
I will follow the trail to tomorrow,
         G              G/D  E/D  Em7             C9
With my loneliness with so---rrow all through the night.
G        G/D    E/D  Em7              C9
Sons and daughters, mothers and their fathers.
          G              G/D    E/D     Em7         C9
Just the bridges and the waters their clues left behind.

[Pre Chorus]
 G               F#/D                  Em7
Sad, how far you ran, I'll search this land,
                 C9
Up through the clouds then back here.
G            F#/D           Em7                Pause
We could reignite like fireflies, like an atom bomb,

At all hours.

[Chorus]
                    G           C9
I'm empty like the day after christmas,
                  Em7             C9
Swept beneath the wave of your goodbye.
                   G            C9
You left me on the day after christmas,
                         Em7           C9
There's nothing left to say, and so goodnight.

[Bridge and Lead]
G----G/D-E/D-Em7----C9-- – x4

*Note: ~ means vibrato        *15 pick this note quickly
e|-------------------------------------|
B|-12~--12-13-10~--10-12-8~--151515-13-|   
G|-------------------------------------|    
D|-------------------------------------| 
A|-------------------------------------|
E|-------------------------------------| x4

                    G           C9
I'm empty like the day after christmas,
                  Em7             C9
Swept beneath the wave of your goodbye.
                   G            C9
You left me on the day after christmas,
                         Em7           C9
There's nothing left to say, and so goodnight.

[Outro]
G----C9----Em7----C9

*End song in G chord


Keep Rocking!