Artist Placholder

Boxing Day

Capo None

G 3×0033
G/D 2×0033
E/D x02x33
Em7 022033
C9 x3x033
F#/D 2×0233

This is a very cool song to learn, but not easy to sing along to while playing the guitar, just keep on practicing it on a slower tempo and increase it gradually.

[Intro]
e|------------------------------------|
B|---3---------3---1---------1p0------|
G|-------0---0---------0---0-------0--|
D|------------------------------------|
A|---2-----2-------0-----0-------0----|
E|------------------------------------| x3

e|---------------------|
B|---3---------3---1~--|
G|-------0---0---------|
D|---------------------|
A|---2-----2-------0~--|
E|---------------------| x1

     G          G/D   E/D     Em7          C9
e|---3-----------3-----3-------3-----------3---3-3-3--|
B|---3-----------3-----3-------3-----------0h1-1-1-0--|
G|---0-----------0-----x-------0-----------0---0-0-0--|
D|---0-----------0-----2-------2-----------x---x-x-x--|
A|---x-----------x-----0-------2-----------3---3-3-3--|
E|---3-----------2-----x-------0-----------x---x-x-x--|

*This continues for the whole verse
scroll Autoscroll 0 1 2
Verse
LGet's get G/DstartedE/D, the Em7faint and broken-C9hearted,
Hold it Gup, I've got sG/DomethiE/Dng I Em7cannot C9hide.
WGorst painkG/Diller,E/D that Em7all-in fC9iller,
ApartG and deG/Dpar--E/Dted..lEm7ook in my C9eyes.
Pre Chorus
SGad, how far you F#/Dran, I'll search this Em7land,
Up through the clC9ouds then back here.
GWe could reigF#/Dnite like firefEm7lies, like an atom Pausebomb,
At all hours.



Chorus
I'm empty like the dGay after chrC9istmas,
Swept beneath the Em7wave of your gooC9dbye.
You left me on the Gday after chrC9istmas,
There's nothing left to sEm7ay, and so gooC9dnight.
Verse II
GI will fG/Dollow E/Dthe traiEm7l to toC9morrow,
With my lGoneliness with G/Dso...E/Drrow Em7all through the C9night.
GSons and G/DdaughteE/Drs, mEm7others and their C9fathers.
Just the bGridges and the G/Dwaters E/Dtheir clEm7ues left behC9ind.
Pre Chorus
SGad, how far you F#/Dran, I'll search this Em7land,
Up through the clC9ouds then back here.
GWe could reigF#/Dnite like firefEm7lies, like an atom Pausebomb,
At all hours.
Chorus



I'm empty like the dGay after chrC9istmas,
Swept beneath the Em7wave of your gooC9dbye.
You left me on the Gday after chrC9istmas,
There's nothing left to sEm7ay, and so gooC9dnight.
Bridge
G.....G/D.....E/D.....Em7.......C9..
G.....G/D.....E/D.....Em7.......C9..
G.....G/D.....E/D.....Em7.......C9..
G.....G/D.....E/D.....Em7.......C9..
I'm empty like the dGay after chrC9istmas,
Swept beneath the Em7wave of your gooC9dbye.
You left me on the Gday after chrC9istmas,
There's nothing left to sEm7ay, and so gooC9dnight.
Outro
G.....G/D.....E/D.....Em7.......C9..


more Blink-182 songs: