Ariana Grande – Focus Chords

View Favorites
Capo:
scroll Autoscroll 0 1 2
NO CAPO

G#m   466444
F#    244322

[Verse I]
G#m
I know what I came to do
    G#m                    F#
And that ain't gonna change
   G#m
So go ahead and talk your talk
 G#m                        F#
'Cause I won't take the bait
G#m
I'm over here doing what I like
G#m                           F#
I'm over here workin' day and night
    G#m
And if my real ain't real enough
    G#m                F#
I'm sorry for you, bae! 

[Pre-Chorus]
*It's better if you play the riff in this part
 chords don't sound good in this part.
 
 Let's find a light inside our universe now
e|-------------------------------------------|
B|-------------------------------------------|
G|-------------------------------------------| repeat
D|-------------------------------------------|
A|------------2-----4-2----1-----------------|
E|-----4----6------------------4--2-----4----|

Where ain't nobody keep on holding us down
Just come and get it, let them say what they say

 Cause I'm a-bout to put them all a-way
e|-------------------------------------------|
B|-------------------------------------------|
G|-------------------------------------------|
D|-------------------------------------------|
A|-----------2----4--2----1---2---4-6--------|
E|-----4---6---------------------------------|

[Chorus]
G#m          F#  G#m        F#
Focus on me, f-f-focus on me
G#m          F#  G#m        F#
Focus on me, f-f-focus on me
G#m          F#  G#m        F#
Focus on me, f-f-focus on me
G#m          F#  G#m        F#
Focus on me, f-f-focus on me

[Verse II]
G#m
I can tell you're curious
     G#m                 F#
It's written on your lips
G#m
Ain't no need to hold it back
    G#m                    F#
Go 'head and talk your shit
G#m
I know you're hoping that I'll react
G#m                                  F#
I know you're hoping I'm looking back
    G#m
But if my real ain't real enough
     G#m                  F#
Then I don't know what is

[Pre-Chorus]
 
 Let's find a light inside our universe now
e|-------------------------------------------|
B|-------------------------------------------|
G|-------------------------------------------| repeat
D|-------------------------------------------|
A|------------2-----4-2----1-----------------|
E|-----4----6------------------4--2-----4----|

Where ain't nobody keep on holding us down
Just come and get it, let them say what they say

 Cause I'm a-bout to put them all a-way
e|-------------------------------------------|
B|-------------------------------------------|
G|-------------------------------------------|
D|-------------------------------------------|
A|-----------2----4--2----1---2---4-6--------|
E|-----4---6---------------------------------|

[Chorus]
G#m          F#  G#m        F#
Focus on me, f-f-focus on me
G#m          F#  G#m        F#
Focus on me, f-f-focus on me
G#m          F#  G#m        F#
Focus on me, f-f-focus on me
G#m          F#  G#m        F#
Focus on me, f-f-focus on me


Keep Rocking!