Adele – Turning Tables Chords

Capo on 3rd fret || Tuning: EADGBe (standard)

Am7      x02010      G     320033
Fadd9    xx3213      C     x32010
Dm7add9  xx0210      G/B   32000x
F        xx3211      Dm    xx0231
Dm7      xx0211

*This is an awesome song to learn, I really recommend investing
 your time into perfecting this, it's not that hard because there
 aren't any barred chords, only thing to work on is the fast switching
 of notes.
*Take note of the 'x' above, it means muted string.

[Intro]
   Am7                               Fadd9
e|---------3---3-----------3---3---|---------3---3-----------3---3---|
B|-----1-----1---1-----1-----1---1-|-----1-----1---1-----1-----1---1-|
G|---2---2-----------2---2---------|---2---2-----------2---2---------|
D|---------------------------------|-3---------------3---------------|
A|-0---------------0---------------|---------------------------------|
E|---------------------------------|---------------------------------|
   Dm7add9                           F                               
e|---------0---0-----------0---0---|---------1---1---------1-0-------|
B|-----1-----1---1-----1-----1---1-|-----1-----1---1-----1-----1-----|
G|---2---2-----------2---2---------|---2---2-----------2---------2---|
D|-0---------------0---------------|-3---------------3-------------3-|
A|---------------------------------|---------------------------------|
E|---------------------------------|---------------------------------|

[Verse I]
Am7 Fadd9 Close enough to start a war Dm7add9 F All that I have is on the floor Am7 Fadd9 God only knows what we're fighting for Dm7add9 F All that I say, you always say more [Pre-Chorus] F Dm7 I can't keep up with your turning tables F G/B Under your thumb, I can't breathe
[Chorus] Am7 F C Dm So I won't let you close enough to hurt me Am7 F C Dm No, I won't rescue you to just desert me Am7 Fadd9 C* F* G* (*is single strum) I can't give you the heart you think you gave me *Dm *C *F Am7 Fadd9 It's time to say goodbye to turning tables Dm7add9 F To turning tables [Verse II] Am7 Fadd9 Under haunted skies I see you, oooh Dm7add9 F Where love is lost, your ghost is found Am7 Fadd9 I braved a hundred storms to leave you Dm7add9 F As hard as you try, no I will never be knocked down [Pre-Chorus] F Dm7 I can't keep up with your turning tables F G/B Under your thumb, I can't breathe [Chorus] Am7 F C Dm So I won't let you close enough to hurt me Am7 F C Dm No, I won't rescue you to just desert me Am7 Fadd9 C* F* G* (*is single strum) I can't give you the heart you think you gave me *Dm *C *F Am7 Fadd9 It's time to say goodbye to turning tables Dm7add9 F To turning tables [Bridge] Am7 F Next time I'll be braver, I'll be my own saviour C Dm - Dm7 When the thunder calls for me Am7 F Next time I'll be braver, I'll be my own saviour C G Standing on my own two feet Am7 F C Dm So I won't let you close enough to hurt me Am7 F C Dm No, I won't rescue you to just desert me Am7 Fadd9 C* F* G* (*is single strum) I can't give you the heart you think you gave me *Dm *C *F Am7 Fadd9 It's time to say goodbye to turning tables Dm7add9 F To turning tables Am7 Fadd9 Dm7add9 F