Artist Placholder

Highway Don’t Care

Capo None
D  xx0232

Bm x24432
G  320033

A x02220
e|-----------------------------------|
B|-----------------------------------|
G|-9-11-11--9-11-11-9h11p9----9-11~--|
D|-------------------------12--------|
A|-----------------------------------|  \
E|-----------------------------------|   \
                                          Repeat 2x
e|-------------------------------|       /
B|----------------10-------------|      /
G|--9-9-11--9--11-11-11p9s7--9~--|
D|----------12-------------------|
A|-------------------------------|
E|-------------------------------|

e|-----------------|
B|-----------------|
G|-----------------|
D|---------7----0~-|
A|-----5h7---7b----|
E|-5h7-------------| *Before going to verse
scroll Autoscroll 0 1 2
Intro..............
..............Verse I Bet your window's rolled down and your hair's pulled back
And I bet you got no idea you're going way too fast
And you’re trying not to think about what went wrong
Trying not to stop til you get where you goin'
You're trying to stay awake so I bet you turn on the radio
And the song goes...
ChorusI can’t live without you, I can't live without you baby
I can’t live without you, I can't live without you baby, baby
The highway won’t hold you tonight
The highway don’t know you're alive
The highway don’t care if you're all alone
But I do, I do.
The highway won't dry your tears
The highway don't need you here
The highway don't care if you’re coming home
But I do, I do.Verse III bet you got a dead cell phone in the shotgun seat
Yeah, I bet you’re bending God's ear talking about me.
You're trying not to let the first tear fall out
Trying not to think about turning around
You're trying not to be lost in sound but that song is always on
So you sing along
ChorusI can’t live without you, I can't live without you baby
I can’t live without you, I can't live without you baby, baby
The highway won’t hold you tonight
The highway don’t know you're alive
The highway don’t care if you're all alone
But I do, I do.
The highway won't dry your tears
The highway don't need you here
The highway don't care if you’re coming home
But I do, I do.Guitar Solo..............
..............
I can’t live without you, I can't live without you baby
I can’t live without you, I can't live without you baby, oh baby
The highway don't care
The highway don't care
The highway don't care
........But I do, I do.


more Tim McGraw songs: