One Direction – Midnight Memories Chords

Capo:
View Favorites
scroll Autoscroll 0 1 2
NO CAPO

E   022100 or 022xxx
A   x02220 or x022xx
B   x24442 or x24xxx

*I'm pretty sure that this is 100% accurate.

   E E
e|------------------------------------------------|
B|------------------------------------------------|
G|------------------------------------------------|
D|-2-2------------------------0-------------------|
A|-2-2---------------0--2--4-----4--2--0----------|
E|-0-0------0--2--4-----------------------5--4--2-|
*E      *E   (*Single strum)
Straight out of the plane to a new hotel
*E  *E 
Just touched down, you could never tell
*E  *E 
 Big house party with a crowded kitchen
*E     *E 
 People talk sh*t but we don't listen

[Pre-Chorus]
A
Tell me that I'm wrong but I do what I think
C
Way too many people in the Allison Lane
D                                                  E(pause)
Now I'm in the age where I know what I need, oh whoa!

[Chorus]
   E  E  A  A  B  B
e|------------------------------------|
B|------------------------------------|
G|-------2--2--4--4-------------------|
D|-2--2--2--2--4--4--------2----------|
A|-2--2--0--0--2--2----2-4---4-2------|
E|-0--0--------------------------4-2--|

E        A    B
Midnight memories, (oh oh oh)
E
Baby you and me
 A
Storming in the street
B
Singing, singing, singing
E        A    B
Midnight memories, (oh oh oh)
E
Anywhere we go?
A
Never say no
     B      B      B      B
Just do it, do it, do it, do it!

[Verse II]
*E *E 
 5  foot something with the skinny jeans
*E    *E 
 Don't look back, baby follow me
*E      *E 
 I don't know where I'm going but I'm finding my way
*E   *E 
 Same old sh*t but a different day

[Pre-Chorus]
A
Tell me that I'm wrong but I do what I think
C
Way too many people in the Allison Lane
D                                                  E(pause)
Now I'm in the age where I know what I need, oh whoa!

[Chorus]
   E  E  A  A  B  B
e|------------------------------------|
B|------------------------------------|
G|-------2--2--4--4-------------------|
D|-2--2--2--2--4--4--------2----------|
A|-2--2--0--0--2--2----2-4---4-2------|
E|-0--0--------------------------4-2--|

E        A    B
Midnight memories, (oh oh oh)
E
Baby you and me
 A
Storming in the street
B
Singing, singing, singing
E        A    B
Midnight memories, (oh oh oh)
E
Anywhere we go?
A
Never say no
     B      B      B      B
Just do it, do it, do it, do it!

[Bridge]
C#m   x46654 or x46xxx

C#m                      A
 You and me and all our friends
                          E
I don't care how much we spend
                               B
Baby this is what the night is for
C#m                      A
 I know nothing's making sense
                          E
For tonight let's just pretend
                             B
I don't wanna stop so get me more <--not sure about the lyrics

E        A    B
Midnight memories, (oh oh oh)
E
Baby you and me
 A
Storming in the street
B
Singing, singing, singing
E        A    B
Midnight memories, (oh oh oh)
E
Anywhere we go?
A
Never say no
     B      B      B      B
Just do it, do it, do it, do it!
Credits to: https://chordsworld.com/


Keep Rocking!