Jesus Culture – One Thing Remains Chords

Capo:
 || Tuning: EADGBe (standard)

C9   x32033     Aminsus4   x02233
G    320033     Em7        022033
D2   xx0233

*You can play the regular C,G,D,Em,Am they're still correct
 but the C9, D2, Aminsus4, Em7 sounds even better.

[Intro and Verse I]
e|------------------------------------------------|
B|-------3-----------3-----------3-----------3----|
G|----0-----0-----0-----0-----2-----2-----2-----0-|
D|-2-----------0-----------0-----------0----------|
A|------------------------------------------------|
E|------------------------------------------------|
C9              G              D2
Higher than the mountains that I face
C9                G          D2
Stronger than the power of the grave
C9            G           D2
Constant thru trial and the change
      C9  G   D2
One thing   Remains
      C9  G   D2
One thing   Remains...

[Chorus]
e|------------------------------------------------|
B|-------3-----------3-----------3-----------3----|
G|----0-----0-----0-----0-----0-----0-----2-----0-|
D|-2-----------------------------------0----------|
A|-------------3----------------------------------|
E|-------------------------3----------------------|

     Em7                   C9
Your love never fails, it never gives up
    G                D2
It never runs out on me
     Em7                   C9
Your love never fails, it never gives up
    G                D2
It never runs out on me
     Em7                   C9
Your love never fails, it never gives up
    G                D2
It never runs out on me

Em7 - C9 - G - D2
[Verse II]
        C9            G          D2
Because on and on and on and on it goes
       C9             G          D2
For it overwhelms and satisfies my soul
      C9            G         D2
And I never, ever, have to be afraid
      C9  G   D2
One thing   Remains
      C9  G   D2
One thing   Remains...

[Chorus]
     Em7                   C9
Your love never fails, it never gives up
    G                D2
It never runs out on me
     Em7                   C9
Your love never fails, it never gives up
    G                D2
It never runs out on me
     Em7                   C9
Your love never fails, it never gives up
    G                D2
It never runs out on me
     Em7   |    C9   |    G    |    D2
Your LOVE

C9 - G - D2

[Bridge]
    C9        G         D2            Amsus4
In death, In life, I’m confident and covered by the
 C9       G          D2
power of Your great love
    C9      G             D2               Amsus4
My debt is paid, there’s nothing that can separate
    C9         G          D2
My heart from Your great love

     Em7                   C9
Your love never fails, it never gives up
    G                D2
It never runs out on me
     Em7                   C9
Your love never fails, it never gives up
    G                D2
It never runs out on me
     Em7                   C9
Your love never fails, it never gives up
    G                D2
It never runs out on me


Keep Rocking!

scroll
play/pause mobile