Imagine Dragons – Radioactive Chords

Capo:
View Favorites
scroll Autoscroll 0 1 2
 D   xx0232

[Intro] 1st part, 2nd part back to 1st part, before going to the 1st verse
e|-------------------------------------------------------------------------
B|----------15-------17-------19----17----------15-------17-------15-------
G|-16-14-16----14-16----14-16----14----16-14-16----16-14----16-14----14-16-
D|-------------------------------------------------------------------------
A|-------------------------------------------------------------------------
E|-------------------------------------------------------------------------

-------------------------------------------------------17----------------|
----------15-------17-------19----17----------15----------15----15-17----|
-16-14-16----14-16----14-16----14----16-14-16----14-16-------16-------16-|
-------------------------------------------------------------------------|
-------------------------------------------------------------------------|
-------------------------------------------------------------------------|
Bm           D             A
 I'm waking up to ash and dust
          E                    Bm
I wipe my brow and I sweat my rust
               D             A    E
I'm breathing in the chemicals  *Inhale
Bm             D           A                 E
 I'm breaking in, shaping up, then checking out on the prison bus
Bm         D            A     *E *Connect to chorus
 This is it, the apocalypse Whoa

[Chorus]
           Bm            D
I'm waking up, I feel it in my bones
 A                E
Enough to make my systems grow
Bm                     D
Welcome to the new age, to the new age
A                      E
Welcome to the new age, to the new age
Bm                D                 A            E
 Whoa oh oh oh oh, Whoa oh oh oh I'm radioactive, radioactive
Bm                D                 A            E
 Whoa oh oh oh oh, Whoa oh oh oh I'm radioactive, radioactive

[Verse II]
Bm            D            A
 I raise my flags, don my clothes
           E             Bm
It's a revolution, I suppose
              D                A      E
We're painted red to fit right in (whoa)
Bm            D           A                 E
 I'm breaking in, shaping up, then checking out on the prison bus
Bm         D            A      E
 This is it, the apocalypse Whoa

[Chorus]
           Bm            D
I'm waking up, I feel it in my bones
 A                E
Enough to make my systems grow
Bm                     D
Welcome to the new age, to the new age
A                      E
Welcome to the new age, to the new age
Bm                D                 A            E
 Whoa oh oh oh oh, Whoa oh oh oh I'm radioactive, radioactive
Bm                D                 A            E
 Whoa oh oh oh oh, Whoa oh oh oh I'm radioactive, radioactive

[Bridge]
Bm          D   A          E
All systems go, sun hasn't died
Bm         D       A              E
Deep in my bones, straight from inside

           Bm            D
I'm waking up, I feel it in my bones
 A                E
Enough to make my systems grow
Bm                     D
Welcome to the new age, to the new age
A                      E
Welcome to the new age, to the new age
Bm                D                 A            E
 Whoa oh oh oh oh, Whoa oh oh oh I'm radioactive, radioactive
Bm                D                 A            E
 Whoa oh oh oh oh, Whoa oh oh oh I'm radioactive, radioactive
Credits to: https://chordsworld.com/


Keep Rocking!