Callalily – Pansamantala Chords

Capo:
NO CAPO || Tuning: EADGBe (standard)

G       320033    D      xx0232
F#/D    2x0233    Dsus4  xx0233
Em7     022033    Bm     x24432
Cadd9   x32033

[Intro]
e|--------------------------------------------
B|--------------------------------------------
G|---------7---------------0---2h4-2-0--------
D|---5-7-9---9---7---0-0h2--------------0h2-0-
A|-5------------------------------------------
E|--------------------------------------------
-------------------------------------|
-------------------------------------|
-2h4----7---------------0---2h4-2-0--|
----------9---7---0-0h2--------------|
-------------------------------------|
-------------------------------------|

[Verse I]
G               F#/D
 Siya na ang mayaman
                Em7        Cadd9
Siya na ang may oto, siya na
G             F#/D       Em7              Cadd9
 Siya na ang meron ng lahat ng bagay na wala ako
G              F#/D  Em7      Cadd9
 'Di mo man sabihin, aking napapansin
Em7                Cadd9
 Kapag nalagay ka sa alanganin
 Em7       Cadd9   Cadd9
Heto na naman tayo

[Chorus]
      G          F#/D
Pansamantalang unan
            Em7        Cadd9
Sa tuwing ika'y nahihirapan
     G             F#/D
Pansamantalang panyo
            Em7         Cadd9
Sa tuwing ika'y nasasaktan

e|--------------------------------------|
B|--------------------------------------|
G|---------7---------------0---2h4-2-0--|
D|---5-7-9---9---7---0-0h2--------------|
A|-5------------------------------------|
E|--------------------------------------|
[Verse II]
G       F#/D          Em7        Cadd9
 Bakit ba sa akin na lang palagi ang takbo
G               F#/D          Em7         Cadd9
 Sa tuwing kayo ay may away ako ang lagi mong karamay
*G           *F#/D  *Loud downstrokes
  Di naman tayo,
   *Em7         *Cadd9  *Single strum
Hindi, diba't hindi

[Chorus]
      G          F#/D
Pansamantalang unan
            Em7        Cadd9
Sa tuwing ika'y nahihirapan
     G             F#/D
Pansamantalang panyo
            Em7        Cadd9
Sa tuwing ika'y nasasaktan

[Bridge]
   Em7                Cadd9
Kaibigan lang ba ang maituturing
     Em7                Cadd9
Ang hirap naman yatang mangapa sa dilim
 Bm              Cadd9           D      Dsus4
Sino nga ba talaga sa amin ang iyo-----ng

      G          F#/D          |
Pansamantalang unan            |
            Em7        Cadd9   |Repeat
Sa tuwing ika'y nahihirapan    |2
     G             F#/D        |Times
Pansamantalang panyo           |
            Em7        Cadd9   |
Sa tuwing ika'y nasasaktan     |
      G    F#/D
Pansamantala
      Em7  Cadd9
Pansamantala
      G    F#/D
Pansamantala
           Em7   Cadd9   G
Tanggap ko na...
Credits to: https://chordsworld.com/


Keep Rocking!

scroll
play/pause mobile