Artist Placholder

Wanted Dead Or Alive

Capo None

D xx0232
Cadd9 x32033
G 320033
F xx321x // x3321x

[Intro]
e|------13----------12----------10---------8--------5--------3-----3/1-|
B|---------------------------------------------------------------------|
G|---14----14----12----12----10----10----9---9----5---5----4---4---4/2-|
D|-0-----------0-----------0-----------0--------0--------0-------------| x2
A|---------------------------------------------------------------------|
E|---------------------------------------------------------------------|
                                                 D U D
e|----------------|--0--------------|     e|------------|
B|----------------|-----3-----3-----|     B|-----1---3--|
G|----------------|--------2-----2--|     G|-----2---2--|
D|--------0-3b-0--|-----------------| x3  D|-----3---0--| x1
A|-0-0-3b---------|-----------------|     A|--3--3------|
E|----------------|-----------------|     E|------------|
scroll Autoscroll 0 1 2
Verse I
DIt's all the same, Cadd9only the names will Gchange
Cadd9And every dayG, it seems we're F*wastC*ing awDay
DAnother place, where the Cadd9faces are soG cold
I'd Cadd9drive all nGight , just to F*get C*back Dhome
Chorus
I'm a Ccowboy,G..on a stFeel horse DI ride
CI'm wantedG, dFead or alDive
CWantedG,..deFad or alDive
Dead or A---live
e|----------------------2---|
B|----------------------3---|
G|----------------------2---|
D|-------0----3---0-----0---|
A|-3------------------------|
E|--------------------------|
Instrumental
*intro riff two times
Verse II
SomeDtimes I sleep, sometCadd9imes is not for dGays
the Cadd9people I meetG, always F*go theC*ir separate wDays
SomeDtimes you tell the day, by the Cadd9bottle that yGou drink
And Cadd9times when you´re alGone, and F*all yC*ou do is Dthink
Chorus
I'm a Ccowboy,G..on a stFeel horse DI ride
CI'm wantedG, dFead or alDive
CWantedG,..deFad or alDive
Instrumental
*intro riff two times
Guitar Solo
D.....Cadd9........G....Cadd9........G.....F...C...D.
D.....Cadd9........G....Cadd9........G.....F...C...D.
Last Chorus
I'm a Ccowboy,G..on a stFeel horse DI ride
CI'm wantedG, dFead or alDive
And I Dwalk these streets, a loaded Cadd9six string on mGy back
I Cadd9play for keeps,G 'cause I mF*ight nC*ot make it bDack
Been Devery where, still I'm sCadd9tanding tGall
I've Cadd9seen a milion fGaces, and I've rF*ock C*them alDl
I'm a Ccowboy,G on a steFel horse ID ride
CI'm wantedG, dFead or alDive
Well I'm a Ccowboy,G..I got the nFight on my sDide
CI'm Wanted G(wanted),..dFead or aDlive
CDead or GAlive,..DFead or aDlive
CDead or GAlive,..DFead or aDlive
Outro
*intro riff two times. end with D chord

more Bon Jovi songs: