Will.i.am – Fall Down Chords

No Capo || Tuning: EADGBe (standard)

e|-------------------------------------------|
B|--------------8--8-----8--9--8-----8--8----|
G|-8-8-8-101010-x--x--5--x--x--x--5--x--x--7-|
D|-x-x-x-x-x-x--5--5--x--5--6--5--x--5--5--x-|
A|-6-6-6-8-8-8--------3-----------3--------5-|
E|-------------------------------------------|
You make my world, you make my world go 'round
You turn me up, you turn me upside down
You make my world, you make my world go 'round
You get me off, you get me off the ground
You pick me up when I fall down
You pick me up when I fall down

e|------------------|
B|------------------|
G|------------------|
D|-5---------8------|
A|-3-(12x)---6-(x1)-|
E|------------------|
Girl, you're like an elevator cause you always pick me up
Girl, you're like a doctor when I'm sick you always stitch me up
You can be my DJ, I'm your record, come on mix me up
e|------------------------|
B|------------------------|
G|------------------------|
D|------------------------|
A|-6-------3-------5------|
E|-4-(x8)--1-(x7)--3-(x1)-|
You can be my lollipop, lemme, lemme lick you up
e|------------------|
B|------------------|
G|------------------|
D|-5---------8------|
A|-3-(12x)---6-(x1)-|
E|------------------|
On the bottom, on the top, baby, lemme flip you up
You can be my soda pop, Coca Cola sip it up
Whip cream, whip it up, strip on, zip it up
e|------------------------|
B|------------------------|
G|------------------------|
D|------------------------|
A|-6-------3-------5------|
E|-4-(x8)--1-(x7)--3-(x1)-|
I could be your chip, you can be my dip, lemme dip it up
e|-------------------------------------------| B|--------------8--8-----8--9--8-----8--8----| G|-8-8-8-101010-x--x--5--x--x--x--5--x--x--7-| D|-x-x-x-x-x-x--5--5--x--5--6--5--x--5--5--x-| A|-6-6-6-8-8-8--------3-----------3--------5-| E|-------------------------------------------| You make my world, you make my world go 'round You turn me up, you turn me upside down You make my world, you make my world go 'round You get me off, you get me off the ground You pick me up when I fall down You pick me up when I fall down You pick me up when I fall down You pick me up when I fall down
e|------------------| B|------------------| G|------------------| D|-5---------8------| A|-3-(12x)---6-(x1)-| E|------------------| Boy, you're like an elevator cause you always pick me up Boy, you're like my doctor, when I'm sick, you always stitch me up You could be my DJ, I'm your record come on mix me up e|------------------------| B|------------------------| G|------------------------| D|------------------------| A|-6-------3-------5------| E|-4-(x8)--1-(x7)--3-(x1)-| Boy, just be my lollipop, lemme, lemme lick you up e|-------------------------------------------| B|--------------8--8-----8--9--8-----8--8----| G|-8-8-8-101010-x--x--5--x--x--x--5--x--x--7-| D|-x-x-x-x-x-x--5--5--x--5--6--5--x--5--5--x-| A|-6-6-6-8-8-8--------3-----------3--------5-| E|-------------------------------------------| Always on my membrane, I love you so I give it up Lets visit all the places that's exquisite let's go live it up Walking down lover's lane, flying in an airplane Boy you get me higher, like your nickname was Mary Jane e|-------------------------------------------| B|--------------8--8-----8--9--8-----8--8----| G|-8-8-8-101010-x--x--5--x--x--x--5--x--x--7-| D|-x-x-x-x-x-x--5--5--x--5--6--5--x--5--5--x-| A|-6-6-6-8-8-8--------3-----------3--------5-| E|-------------------------------------------| You make my world, you make my world go round You turn me up, you turn me upside down You make my world, you make my world go round You get me off, you get me off the ground You pick me up when I fall down (4x) Credits to: http://chordsworld.com/