OneRepublic – Secrets Chords

Capo:2nd Fret (Can be played without capo) || Tuning: eADGBE (standard)
C     x32010       Am     x02210       FM7     x0321x
                   Em     022000                     

*When you strum FM7, make sure you don't
 hit the last string. It will NOT sound good
 if you do.
*FM7 can also be played with a regular
 F chord, which is 133211. Both are correct

[Intro]
C - Em - Am - FM7

   C                               
e|---------------------------------|
B|---------------------------------|
G|-----0---0-----------0---0-------|
D|---2---2---2---2---2---2---2---2-|
A|-3-----------3---3-----------3---|
E|---------------------------------|

   Em
e|---------------------------------|
B|---------------------------------|
G|-----0---0-----------0---0-------|
D|---2---2---2---2---2---2---2---2-|
A|-2-----------2---2-----------2---|
E|---------------------------------|

   Am
e|---------------------------------|
B|---------------------------------|
G|-----2---2-----------2---2-------|
D|---2---2---2---2---2---2---2---2-|
A|-0-----------0---0-----------0---|
E|---------------------------------|
FM7 e|---------------------------------| B|---------------------------------| G|-----2---2-----------2---2-------| D|---3---3---3---3---3---3---3---3-| A|-0-----------0---0-----------0---| E|---------------------------------| [Verse I] C I need another story Em Something to get off my chest Am My life gets kinda boring FM7 Need something that I can confess C Til' all my sleeves are stained red Em From all the truth that I've said Am Come by it honestly I swear FM7 Thought you saw me wink, no I've been on the brink, so
[Chorus] C Tell me what you want to hear Em Something that'll light those ears Am Sick of all the insincere FM7 So I'm gonna give all my secrets away C Em This time, don't need another perfect lie Am Don't care if critics ever jump in line FM7 I'm gonna give all my secrets away [Verse II] C Em My god, amazing how we got this far Am It's like we're chasing all those stars FM7 Who's driving shiny big black cars C And everyday I see the news All the problems that we could solve Em And when a situation rises Just write it into an album Am Singing straight, too cold FM7 I don't really like my flow, no, so [Chorus] C Tell me what you want to hear Em Something that'll light those ears Am Sick of all the insincere FM7 So I'm gonna give all my secrets away C Em This time, don't need another perfect lie Am Don't care if critics ever jump in line FM7 I'm gonna give all my secrets away C - Em - Am - FM7 (You can do the intro before going to bridge) [Bridge] C Em Oooh, got no reason, got not shame Am Got no family I can blame FM7 Just don't let me disappear I'mma tell you everything [Chorus] x2 C Tell me what you want to hear Em Something that'll light those ears Am Sick of all the insincere FM7 So I'm gonna give all my secrets away C Em This time, don't need another perfect lie Am Don't care if critics ever jump in line FM7 I'm gonna give all my secrets away