Mariah Carey – #Beautiful Chords

Without Capo || With Capo on 4th fret  || Tuning: EADGBe (standard)

E    022100    >   C    x32010
A    x02220    >   F    x3321x
B    x24442    >   G    32003x
C#m  x46654    >   Am   x02210

*If you can't play the B chord properly, try doing x244xx
 Also, an easy C#m is x4665x or x466xx
[Intro]
   E                        A
e|--------------------------------------------------|
B|--------------------------------------------------|
G|--------------------------------------------------|
D|-2--4-4b5--2-2h4-4/6-6-4-----4-4b5--------4-4\2-2-|
A|--------------------------------------------------|
E|--------------------------5---------5-5-5---------|
   B                    C#m      A
e|------------------------------------------|
B|------------------------------------------|
G|------------------------------------------|
D|----4-4b5-------4-4------6-6-4----4-4\2-2-|
A|-2---------2-2------2-4-------------------|
E|-------------------------------5----------|

*Play this if you are using a capo on the 4th fret
   C                           F
e|------------------------------------------------------|
B|------------------------------------------------------|
G|------------------------------------------------------|
D|------------------------------------------------------|
A|-7--9-9b10--7-7h9-9/11-11-9-----9-9b10--------9-9\7-7-|
E|-----------------------------5----------5-5-5---------|
   G                     Am         F
e|---------------------------------------------|
B|---------------------------------------------|
G|---------------------------------------------|
D|---------------------------------------------|
A|----9-9b10-------9-9------11-11-9----9-9\7-7-|
E|-7----------7-7------7-9----------5----------|

[Verse]
E
 Hop on the back of my bike
        A
Let the good wind blow through your hair
         B
With an a$$ like that
And a smile so bright C#m Oh, you're killing me A You know it ain't fair E Ride on Through the middle of the night A Let the moonlight kiss your skin B When you dance like that Your jeans so tight C#m Oh, you're killing me A Baby, do it again [Chorus] E You're beautiful A And your mind is fvcking beautiful B Even I can't pretend that C#m A That doesn't mean a thing to me, to me yeah E You're beautiful A Good Lord, you're fvcking beautiful B Even I can't pretend that C#m A E That doesn't mean a thing to me, to me yeah, yeah
[Verse II] I like when you run red lights A Don't stop 'til you thrill me Oh, how you thrill me B Always in control How you do it, I don't know C#m But I don't care A Take me anywhere [Chorus] E 'Cause it's beautiful A Ooh, you make me feel undressable B And I can't pretend C#m A That doesn't mean a thing to me, to me E Oh, you're beautiful A And your mind is fvcking beautiful B Even I can't pretend that C#m A That doesn't mean a thing to me, to me yeah A Good Lord, you're fvcking beautiful B And I can't pretend C#m A E That doesn't mean a thing to me, to me yeah, yeah *Just keep on repeating E - A - B - C#m - A until fade Credits to: http://chordsworld.com/