Lifehouse – Between The Raindrops Chords

Capo:2nd Fret
A     x02220       E     022100
C#m   x46654       B     x24442

*Can be played without capo

[Intro]
A - C#m - E - B

*slide the notes
(Without capo)
e|-----------------------------------------------------------------|
B|-----------------------------------------------------------------|
G|-----------------------------------------------------------------|
D|-----------------------------------------------------------------|
A|----4-4---4---4---7-7---7---7----11-11----11----11---6-6---6---6-|
E|--5-----5---5---9-----9---9---12-------12----12----7-----7---7---|

(With capo)
e|--------------------------------------------------------------------|
B|--------------------------------------------------------------------|
G|--------------------------------------------------------------------|
D|--------------------------------------------------------------------|
A|----6-6---6---6----9-9----9----9----13-13----13----13---8-8---8---8-|
E|--7-----7---7---11-----11---11---14-------14----14----9-----9---9---|
*Strum once or pluck the chords if you can't figure out the timing [Verse I] A C#m Look around E B There's no one but you and me A C#m Right here and now E B The way it was meant to be A C#m There's a smile on my face E B Knowing that together A C#m Everything that's in our way E B We're better than alright [Chorus] C#m Walking between the raindrops A E B Riding the aftershock beside you C#m Off into the sunset A Living like there's nothing E B left to lose
C#m Chasing after gold mines A E B Crossing the fine lines we knew C#m Hold on and take a breath A I'll be here every step E B Walking between the raindrops *A (soft strum) C#m - E - B with you... [Verse II] A C#m Take me now E B The world's such a crazy place A C#m When the walls come down E B You'll know I'm here to stay A C#m There's nothing I would change E B A C#m Knowing that together everything that's in our way E B We're better than alright [Chorus] C#m Walking between the raindrops A E B Riding the aftershock beside you C#m Off into the sunset A Living like there's nothing E B left to lose C#m Chasing after gold mines A E B Crossing the fine lines we knew C#m Hold on and take a breath A I'll be here every step E B Walking between the raindrops *A (soft strum) C#m - E - B with you... [Bridge] A C#m There's a smile on my face E B Knowing that together A C#m Everything that's in our way E B We're better than alright [Chorus] C#m Walking between the raindrops A E B Riding the aftershock beside you C#m Off into the sunset A Living like there's nothing E B left to lose C#m Chasing after gold mines A E B Crossing the fine lines we knew C#m Hold on and take a breath A I'll be here every step E B Walking between the raindrops A - C#m - E - B with you...