Kamikazee – Tagpuan Chords

Tuning: eADGBE (standard)
No Capo
Chords:
A      x02220        A5     57xxxx
G      320033        B5     97xxxx
                     D5     x57xxx
                     G5     35xxxx

[Intro]

Rhythm
e----------------| 
B----------------|
G----------------| 
D---7~-----------|
A---5~-5~-9~-7~--| 
E------3~-7~-5~--| 

Lead
e----------------------------------|
B----------------------------------|
G----------------------------------|
D---0-9-7-0-5-4-0-2-4-0-5-4-0-2-4--|
A----------------------------------|
E----------------------------------|
(4x)

*Eto yung part na papasok yung drums
Rhythm
e-------------------|
B-------------------|
G-------------------|
D---7---------------|
A---5---5---9---5---|
E-------3---7---3---|
   (1x)

Lead
e----------------------------------|----------------------------------|
B----------------------------------|----------------------------------|
G----------------------------------|----------------------------------|
D---0-9-7-0-5-4-0-2-4-0-5-4-0-2-4--|--0-7-9-0-5-7-0-4-5-0-2-4-0-2-4-0-|
A----------------------------------|----------------------------------|
E----------------------------------|----------------------------------|
   (3x)                              (1x)
 
[Verse]
G
Nagbibilang ng sandali  

A                     G
Pintig ng puso ko’y bumibilis
       A
Alam kong nadarama mo rin
Guitar 1
e---------0-----------------0---------------0-----------------0----------|
B-----3-----3---3-------3-----3---3-----3-----3---3-------3-----3---3----|
G-------2-----2-----------2-----2---------2-----2-----------2-----2------|
D------------------------------------------------------------------------|
A--------------------------------------0---------------0-----------------|
E---3----------------3---------------------------------------------------|

Guitar2
e-------------| 
B---3~--------| 
G---0~---2~---| 
D--------2~---| (2x)
A--------0~---| 
E---3~--------|

[Pre-Chorus]
G5                 A5
Magkikita tayo muli  parang batang kinikilig
B5
Di mapakali at nasasabik mahawakan kang muli
e--------------------------------------| B--------------------------------------| G-------------------4------------------| D-------------------2------------------| A---5-------7--------------------------| E---3-------5--------------------------| (8x) (8x) (16x) [Chorus] *Puro DOWNSTROKE ang pagstrum D5 G5 Mundo'y ating iwanan B5 Maaari lang sana G5 Dito na lang tayo D5 Sa ating tagpuan G5 Maaari lang sana B5 Dito na lang tayo A5 Sa ating tagpuan (Tagpuan...) LAST NOTE before VERSE e-------| B---3~--| G---0~--| D-------| A-------| E---3~--| [Verse II] G Ngayong gabi aking sinta A G Sayo ang puso ko at kaluluwa A Pagkat ikaw at ako ay iisa [Pre-Chorus II] G5 A5 Magkikita tayo muli parang batang kinikilig B5 Di mapakali at nasasabik mahawakan kang muli
[Chorus II] D5 G5 Mundo'y ating iwanan B5 Maaari lang sana G5 Dito na lang tayo D5 Sa ating tagpuan G5 Maaari lang sana B5 Dito na lang tayo A5 Sa ating tagpuan (Tagpuan...) 02:23 (Guitar 1 & 2) BB A D G GG B\A e---------------------| B---------------------| G--------7------------| D--------5------------| A---99-7---5-55-9\7---| E---77-5---3-33-7\5---| 02:26 Guitar 1 e--------| B--------| G--------| D---7~---| (2x) A---5~---| E--------| Guitar 2 e----------------------------------| B----------------------------------| G----------------------------------| D---0-9-7-0-5-4-0-2-4-0-5-4-0-2-4--| (2x) A----------------------------------| E----------------------------------| 02:33(Guitar 1) B5 A5 G5 e------------------------------------------------------------------| B------------------------------------------------------------------| G------------------------------------------------------------------| D------------------------------------------------------------------|(2x) A--999999999999999977777777777777775555555555555555555555555555555-| E--777777777777777755555555555555553333333333333333333333333333333-| (Guitar 2) e----------------------------------| B----------------------------------| G----------------------------------| D---0-9-7-0-5-4-0-2-4-0-5-4-0-2-4--| (8x) A----------------------------------| E----------------------------------| 03:02 G A e---------------------------| B---------------------------| G---------------------------| D---------------------------| (2x) A---555555555577777777777---| E---333333333355555555555---| G5 A5 Magkikita tayo muli parang batang kinikilig B5 Di mapakali at nasasabik mahawakan kang muli D5 G5 Mundo'y ating iwanan B5 Maaari lang sana G5 Dito na lang tayo D5 Sa ating tagpuan G5 Maaari lang sana B5 Dito na lang tayo A5 Sa ating tagpuan (Tagpuan...) 03:57 BB A D G GG B\A e---------------------| B---------------------| G--------7------------| D--------5------------| A---99-7---5-55-9\7---| E---77-5---3-33-7\5---| Repeat [INTRO] LAST NOTE e--------| B--------| G--------| D--------| A---55---| E---33---|