John Fogerty – Almost Saturday Night Chords

No CAPO || Tuning: EADGBe (standard)

C    x32010
FM7  x3321x
Am   x02210
Em   022000
Dm   xx0231
*The reason I chose to use FM7 instead of a regular F chord
 is because there is some fast switching between C and F throughout
 the song, using an FM7 will lessen the strain on your fingers
 especially for beginners

[Intro]
e--------------------------------|-------------------------------|
B--6-5-5-6-8--------5-5-----5-5--|--6-5-5-6-8-------6-5----------|
G------------5----7-------7------|------------5---------7-5---5--|
D--------------------------------|--------------------------7----|
A--------------------------------|-------------------------------|
E--------------------------------|-------------------------------|

e--------------------------------|--------------------------------------|
B--6-5-5-6-8--------5-5-----5-5--|--------------------------------------|
G------------5----7-------7------|--5-5-4-4-2-2-0-0---------------------|
D--------------------------------|------------------2-3-2-0-2-3-2-0-2---|
A--------------------------------|------------------------------------3-|
E--------------------------------|--------------------------------------|
[Verse I] C FM7 Outside my window C FM7 I can hear the radio C Am Em And I know that motor wagon is getting ready to fly G C Cause it's almost Saturday night C FM7 Bye bye tomorrow C FM7 Jody's gone to the rodeo C Am Em And you know some good old boys are ready to ride G *FM7 *Flow into chorus Cause it's almost Saturday night [Chorus] C Gonna push the clouds away FM7 let the music have its way Dm C G Let it steal my heart away, and you know I'm going..
[Verse II] C FM7 Outside the ringing (ringing) C FM7 the night train is bringin' me home C Am Em When you hear that locomotion get ready to ride G C Cause it's almost Saturday night [Guitar Solo] C - FM7 - C - FM7 C - Am - Em - G-C [Chorus] FM7 C Gonna push the clouds away C let the music have its way Dm C G Let it steal my heart away, and you know I'm going C FM7 Outside the ringing C FM7 the night train is bringin' me home C Am Em When you hear that locomotion get ready to ride G C Cause it's almost Saturday night C - FM7 throughout the second guitar solo until the end. Credits to: http://chordsworld.com/