Demi Lovato – Nightingale Chords

CAPO on 2nd Fret || Tuning: EADGBe (standard)

*In case you want to strum it, refer to the diagram below.
 take note that this is not the real name of the chords,
 I just named it this way to make it easier for you to follow
 
D1  xx0033   |    D2  xx0032   |   D3  xx0031   |   C9  x30030

[Verse I]
    D1        D2        D3        C9
e|----3-3-3-3---2-2-2-2---1-1-1-1---0-0-0-0-|*Repeat "D1" twice
B|----3-3-3-3---3-3-3-3---3-3-3-3---3-3-3-3-|   to play the intro
G|--0---------0---------0-------------------|*Repeat twice for the verse.
D|------------------------------------------| at the 2nd time instead
A|--------------------------------3---------| of playing the C9 4 times,
E|------------------------------------------| only play it 3 times and
                                              proceed to pre-chorus
        D1                   D2
I can't sleep tonight, wide awake and so confused
      D3                         C9
Eveything is in line, but I am bruised
         D1                      D2
I need a voice to echo, I need a light to take me home
        D3                   C9
I kinda need a hero, is it you?

[Pre-Chorus]
       Em7       G         C9        Dsus4
e|---0---3-3-3-3---3-3-3-3---0-0-0-0---3---3-3---|
B|---3---3-3-3-3---3-3-3-3---3-3-3-3---3---3-3---|
G|-----------------------------------------------|
D|-0---2-----------------------------0---0-------|
A|-------------------------3---------------------|
E|---------------3-------------------------------|

Em7  xxx2033   |   G   3x0033   |   C9   x30030  |  Dsus4  xx0233
                Em7                                  G
I never see the forest for the trees, I could really use your melody
           C9                                  Dsus4
Baby I'm a little blind, I think it's time for you to find me

[Chorus]
*C   *D    Em    C9      D
 Can  you  be my Nightingale,
*C    *D   Em   C9            D
 sing  to  me I know you're there.
C               D         C                  G
You could be my sanity, bring me peace, sing me to sleep.
*C   *D      Em    C9     D
*Say  you'll be my Nightingale

[Verse II]
          D1                D2
Somebody speak to me, cause I'm feeling like hell
            D3                  C9 
Need you to answer me, I'm overwhelmed
         D1                      D2
I need a voice to echo, I need a light to take me home
       D3                C9
I need a star to follow, I dont know

[Pre-Chorus]
                Em7                                  G
I never see the forest for the trees, I could really use your melody
           C9                                  Dsus4
Baby I'm a little blind, I think it's time for you to find me

[Chorus]
*C   *D    Em    C9      D
 Can  you  be my Nightingale,
*C    *D   Em   C9            D
 sing  to  me I know you're there.
C               D         C                  G
You could be my sanity, bring me peace, sing me to sleep.
*C   *D      Em    C9     D
*Say  you'll be my Nightingale

[Bridge]
                     C          G
I dont know what I'd do without you
                        C              G
Your words are like a whisper, come through?
                  C               G         D
As long as you're with me here tonight, I'm good

*C   *D    Em    C9      D
 Can  you  be my Nightingale,
*C   *D  Em      C9          D
 feel so close I know you're there
*C  *D   Em  C9     D
 Oh  oh  oh  Nightingale
*C    *D   Em   C9            D
 sing  to  me I know you're there.
      C              D             C                  G
Cause baby you're my sanity, you bring me peace, sing me to sleep.
*C   *D      Em    C9     D
*Say  you'll be my Nightingale
(Do plucking again)
    D1        D2        D3        C9
e|----3-3-3-3---2-2-2-2---1-1-1-1---0-0-0-0-|
B|----3-3-3-3---3-3-3-3---3-3-3-3---3-3-3-3-|
G|--0---------0---------0-------------------|
D|------------------------------------------|
A|--------------------------------3---------|
E|------------------------------------------|
oh.. uhhmm.. uhmm..
Credits to: http://chordsworld.com/