David Guetta – She Wolf (Falling To Pieces) Chords

Tuning: eADGBE (standard)
No Capo
Chords:
Am     x02210     G      320003
Em     022000     D      xx0232

*Plucking is optional. But sounds nice.
*For me, it sounds better if I don't strum
 the high e (thinnest string) in all of the chords
[Intro] 
Am - Em - G - D

  Am              Em
|---------------------------------|
|-1-----1-----1---0-----0-----0---|
|---2-----2-----2---0-----0-----0-|
|-----2-----2---------2-----2-----|
|-0-------------------------------|
|-----------------0---------------|

  G               D
|---------------------------------|
|-0-----0-----0---3-----3-----3---|
|---0-----0-----0---2-----2-----2-|
|-----0-----0-----0---0-----0-----|
|---------------------------------|
|-3-------------------------------|
[Verse I] Am Em G D A shot in the dark a past lost in space Am Em G D where do i start the past and the chase Am Em G D you hunted me down like a wolf a predator Am Em G D I felt like a deer in love Lights [Chorus] G Em Bm D You loved me and i froze in time G Em Bm D Hungry for that flesh of mine G Em Bm But i can't compete with that she-wolf D who has brought me to my knees G Em Bm what do you see in those yellow eyes D Cause I'm falling to pieces
Am Em G I'm falling to pieces D falling to pieces Am Em G I'm falling to pieces D falling to pieces Am - Em - G - D [Verse II] Am Em G D Did she lie in wait was I bait to pull you in Am Em G D The thrill of the kill you feel, is a sin Am Em G D I lay with the wolves alone, it seems Am Em G D I thought I was part of you [Chorus] G Em Bm D You loved me and i froze in time G Em Bm D Hungry for that flesh of mine G Em Bm But i can't compete with that she-wolf D who has brought me to my knees G Em Bm what do you see in those yellow eyes D Cause I'm falling to pieces Am Em G I'm falling to pieces D falling to pieces Am Em G I'm falling to pieces D falling to pieces Am - Em - G - D