Augustana – Boston Chords

Tuning: eADGBE (standard)
No Capo
Chords:
C     z32010       FM7     x0321x  or  F     133211      
CaddB x20030       G       320033
Am    x02210

*The reason why I used FM7 is for easier chord switching
 take note that when you opt to use FM7 for this song,
 ALWAYS MUTE the high e string (thinnest) to still make it
 sound like a regular F chord, but easier to play.

[Intro]
   C               CaddB               Am
e|---------3---------------3---------------5-----7~-------7-8~-|
B|---5---5---5---5---5---5---5---5---5---5---5------5---5------|
G|-5---5-------5---4---4-------4---5---5-------5------5--------|
D|-------------------------------------------------------------|
A|-------------------------------------------------------------|
E|-------------------------------------------------------------|

   FM7             C               FM7             G
e|---------5---------------3---------------5---------------7-----|
B|---6---6---6---6---5---5---5---5---6---6---6---6---8---8---8---|
G|-5---5-------5---5---5-------5---5---5-------5---7---7-------7-|
D|---------------------------------------------------------------|
A|---------------------------------------------------------------|
E|---------------------------------------------------------------|
[Verse I] C CaddB Am FM7 C FM7 G In the light of the sun, is there anyone? Oh it has begun C CaddB Am FM7 C oh dear you look so lost, eyes are red and tears are shed, FM7 G this world you must've crossed, you said... [Chorus] C CaddB FM7 G you don't know me, you don't even care, oh yeah and you said C CaddB FM7 G you don't know me, you don't wear my chains... oh yeah
[Intro II] C - CaddB - Am - FM7 - C - FM7 - G [Verse II] C CaddB Am essential and appealed, FM7 C FM7 G carry all your thoughts across, an open field, C CaddB Am FM7 C FM7 when flowers gaze at you, they're not the only ones who cry G when they see you, you said [Chorus] C CaddB FM7 G you don't know me, you don't even care, oh yeah and you said C CaddB FM7 G you don't know me, you don't wear my chains... oh yeah *Listen to the song for the vocal timing because the singer pauses at some part. C she said I think I'll go to Boston, CaddB I think I'll start a new life, FM7 G I think I'll start it over, where no one knows my name, C CaddB I'll get out of California, I'm tired of the weather, FM7 G I think I'll get a lover and fly em out to Spain C I think I'll go to Boston, CaddB I think that I'm just tired FM7 G I think I need a new town, to leave this all behind C CaddB I think I need a sunrise, I'm tired of the sunset, FM7 G I hear it's nice in the Summer, some snow would be nice... [Outro] C - CaddB - FM7 - G C - CaddB - FM7 - G (and then do 1 intro again then fade...)