Arctic Monkeys – Do I Wanna Know? Chords

CAPO on 3rd Fret || Tuning: EADGBe (standard)
Em    022000
C     x32010
Am    x02210
B     x24442   or  x244xx

*Play once
E|------------|
B|------------|
G|---------0--|
D|-2-0h2p0--2-|
A|------------|
E|------------|

*Repeat on verse except last line
e|---------------------------------------------------------|
B|-----1h3-1~----------------------------------------------|
G|----0-------2h4-2~--0h2h4-2~--0h2h4-2h4---------------0--|
D|-0h2------------------------------------2~--------0h2--2-|
A|---------------------------------------------------------|
E|---------------------------------------------------------|

[Verse I]
Em                             C     Am
 Have you got colour in your cheeks? 
Am                                         Em
 Do you ever get the fear that you can't shift the type
                        Em
That sticks around like summat in your teeth 
               C              Am
Are there some aces up your sleeve 
                                Em
Have you no idea that you're in deep 
                          Em
I dreamt about you nearly every night this week 
          C             Am
How many secrets can you keep?
                                    Em 
Cause there's this tune I found that makes me think of you somehow 
       Em
When I play it on repeat 
C         Am
 Until I fall asleep 
                       B
Spilling drinks on my settee 
*last one before going to pre-chorus
e|---------------------------------|
B|-----1h3-1~----------------------|
G|----0-------2h4-2~--0h2h4-2~--4--|
D|-0h2-----------------------------|
A|---------------------------------|
E|---------------------------------|
[Pre-Chorus] C (Do I wanna Know) Am If this feeling float both ways Em (Sad to see you go) Em Was sort of hoping that you'd stay C (Baby we both know) Am That the nights were mainly made Em Em for saying things that you can't say tomorrow day [Chorus] Em Crawling back to you C Am Ever thought of calling when you've had a few? Em Cause I always do Em C Am Well baby I'm too busy being yours to fall for somebody new Em Now I've thought it through Em Crawling back to you
[Verse II] C Am So have you got the goods? Em Been wondering if you're heart's still open Em And if so I wanna know what time it shuts C Am Simmer down and pucker up I'm sorry to interrupt Em It’s just I'm constantly on the cusp C Am Of trying to kiss you Em I don't know if you feel the same as I do C Am We could be together B If you wanted to [Pre-Chorus] C (Do I wanna Know) Am If this feeling float both ways Em (Sad to see you go) Em Was sort of hoping that you'd stay C (Baby we both know) Am That the nights were mainly made Em Em for saying things that you can't say tomorrow day Em Crawling back to you C Am Ever thought of calling when you've had a few? Em Cause I always do Em C Am Well baby I'm too busy being yours to fall for somebody new Em Now I've thought it through Em Crawling back to you Credits to: http://chordsworld.com/